  0
SECTION
  2
HEADER
  9
$ACADVER
  1
AC1015
  9
$ACADMAINTVER
 70
     6
  9
$DWGCODEPAGE
  3
ANSI_1254
  9
$INSBASE
 10
0.0
 20
0.0
 30
0.0
  9
$EXTMIN
 10
0.0
 20
0.0
 30
0.0
  9
$EXTMAX
 10
279.4
 20
215.9
 30
0.0
  9
$LIMMIN
 10
0.0
 20
0.0
  9
$LIMMAX
 10
279.4
 20
215.9
  9
$ORTHOMODE
 70
     0
  9
$REGENMODE
 70
     1
  9
$FILLMODE
 70
     1
  9
$QTEXTMODE
 70
     0
  9
$MIRRTEXT
 70
     1
  9
$LTSCALE
 40
1.0
  9
$ATTMODE
 70
     1
  9
$TEXTSIZE
 40
3.5
  9
$TRACEWID
 40
1.0
  9
$TEXTSTYLE
  7
Standard
  9
$CLAYER
  8
0
  9
$CELTYPE
  6
ByLayer
  9
$CECOLOR
 62
   256
  9
$CELTSCALE
 40
1.0
  9
$DISPSILH
 70
     0
  9
$DIMSCALE
 40
1.0
  9
$DIMASZ
 40
3.5
  9
$DIMEXO
 40
1.0
  9
$DIMDLI
 40
3.75
  9
$DIMRND
 40
0.0
  9
$DIMDLE
 40
0.0
  9
$DIMEXE
 40
1.0
  9
$DIMTP
 40
0.0
  9
$DIMTM
 40
0.0
  9
$DIMTXT
 40
3.5
  9
$DIMCEN
 40
2.5
  9
$DIMTSZ
 40
0.0
  9
$DIMTOL
 70
     0
  9
$DIMLIM
 70
     0
  9
$DIMTIH
 70
     1
  9
$DIMTOH
 70
     1
  9
$DIMSE1
 70
     0
  9
$DIMSE2
 70
     0
  9
$DIMTAD
 70
     1
  9
$DIMZIN
 70
     0
  9
$DIMBLK
  1

  9
$DIMASO
 70
     1
  9
$DIMSHO
 70
     1
  9
$DIMPOST
  1

  9
$DIMAPOST
  1

  9
$DIMALT
 70
     0
  9
$DIMALTD
 70
     3
  9
$DIMALTF
 40
0.0393700787
  9
$DIMLFAC
 40
1.0
  9
$DIMTOFL
 70
     1
  9
$DIMTVP
 40
0.0
  9
$DIMTIX
 70
     0
  9
$DIMSOXD
 70
     0
  9
$DIMSAH
 70
     0
  9
$DIMBLK1
  1

  9
$DIMBLK2
  1

  9
$DIMSTYLE
  2
ISO-25
  9
$DIMCLRD
 70
     0
  9
$DIMCLRE
 70
     0
  9
$DIMCLRT
 70
     0
  9
$DIMTFAC
 40
1.0
  9
$DIMGAP
 40
1.524
  9
$DIMJUST
 70
     0
  9
$DIMSD1
 70
     0
  9
$DIMSD2
 70
     0
  9
$DIMTOLJ
 70
     0
  9
$DIMTZIN
 70
     0
  9
$DIMALTZ
 70
     0
  9
$DIMALTTZ
 70
     0
  9
$DIMUPT
 70
     0
  9
$DIMDEC
 70
     2
  9
$DIMTDEC
 70
     2
  9
$DIMALTU
 70
     2
  9
$DIMALTTD
 70
     3
  9
$DIMTXSTY
  7
Standard
  9
$DIMAUNIT
 70
     0
  9
$DIMADEC
 70
     2
  9
$DIMALTRND
 40
0.0
  9
$DIMAZIN
 70
     0
  9
$DIMDSEP
 70
    44
  9
$DIMATFIT
 70
     3
  9
$DIMFRAC
 70
     0
  9
$DIMLDRBLK
  1

  9
$DIMLUNIT
 70
     2
  9
$DIMLWD
 70
    -2
  9
$DIMLWE
 70
    -2
  9
$DIMTMOVE
 70
     0
  9
$LUNITS
 70
     2
  9
$LUPREC
 70
     2
  9
$SKETCHINC
 40
1.0
  9
$FILLETRAD
 40
10.0
  9
$AUNITS
 70
     0
  9
$AUPREC
 70
     2
  9
$MENU
  1
.
  9
$ELEVATION
 40
0.0
  9
$PELEVATION
 40
0.0
  9
$THICKNESS
 40
0.0
  9
$LIMCHECK
 70
     0
  9
$CHAMFERA
 40
0.0
  9
$CHAMFERB
 40
0.0
  9
$CHAMFERC
 40
0.0
  9
$CHAMFERD
 40
0.0
  9
$SKPOLY
 70
     0
  9
$TDCREATE
 40
2458985.683510636
  9
$TDUCREATE
 40
2458985.558510636
  9
$TDUPDATE
 40
2458985.683510995
  9
$TDUUPDATE
 40
2458985.558510995
  9
$TDINDWG
 40
0.0000000116
  9
$TDUSRTIMER
 40
0.0000000116
  9
$USRTIMER
 70
     1
  9
$ANGBASE
 50
0.0
  9
$ANGDIR
 70
     0
  9
$PDMODE
 70
     0
  9
$PDSIZE
 40
-1.0
  9
$PLINEWID
 40
0.0
  9
$SPLFRAME
 70
     0
  9
$SPLINETYPE
 70
     6
  9
$SPLINESEGS
 70
     8
  9
$HANDSEED
  5
CB
  9
$SURFTAB1
 70
     6
  9
$SURFTAB2
 70
     6
  9
$SURFTYPE
 70
     6
  9
$SURFU
 70
     6
  9
$SURFV
 70
     6
  9
$UCSBASE
  2

  9
$UCSNAME
  2

  9
$UCSORG
 10
0.0
 20
0.0
 30
0.0
  9
$UCSXDIR
 10
1.0
 20
0.0
 30
0.0
  9
$UCSYDIR
 10
0.0
 20
1.0
 30
0.0
  9
$UCSORTHOREF
  2

  9
$UCSORTHOVIEW
 70
     0
  9
$UCSORGTOP
 10
0.0
 20
0.0
 30
0.0
  9
$UCSORGBOTTOM
 10
0.0
 20
0.0
 30
0.0
  9
$UCSORGLEFT
 10
0.0
 20
0.0
 30
0.0
  9
$UCSORGRIGHT
 10
0.0
 20
0.0
 30
0.0
  9
$UCSORGFRONT
 10
0.0
 20
0.0
 30
0.0
  9
$UCSORGBACK
 10
0.0
 20
0.0
 30
0.0
  9
$PUCSBASE
  2

  9
$PUCSNAME
  2

  9
$PUCSORG
 10
0.0
 20
0.0
 30
0.0
  9
$PUCSXDIR
 10
1.0
 20
0.0
 30
0.0
  9
$PUCSYDIR
 10
0.0
 20
1.0
 30
0.0
  9
$PUCSORTHOREF
  2

  9
$PUCSORTHOVIEW
 70
     0
  9
$PUCSORGTOP
 10
0.0
 20
0.0
 30
0.0
  9
$PUCSORGBOTTOM
 10
0.0
 20
0.0
 30
0.0
  9
$PUCSORGLEFT
 10
0.0
 20
0.0
 30
0.0
  9
$PUCSORGRIGHT
 10
0.0
 20
0.0
 30
0.0
  9
$PUCSORGFRONT
 10
0.0
 20
0.0
 30
0.0
  9
$PUCSORGBACK
 10
0.0
 20
0.0
 30
0.0
  9
$USERI1
 70
     0
  9
$USERI2
 70
     0
  9
$USERI3
 70
     0
  9
$USERI4
 70
     0
  9
$USERI5
 70
     0
  9
$USERR1
 40
0.0
  9
$USERR2
 40
0.0
  9
$USERR3
 40
0.0
  9
$USERR4
 40
0.0
  9
$USERR5
 40
0.0
  9
$WORLDVIEW
 70
     1
  9
$SHADEDGE
 70
     3
  9
$SHADEDIF
 70
    70
  9
$TILEMODE
 70
     1
  9
$MAXACTVP
 70
    64
  9
$PINSBASE
 10
0.0
 20
0.0
 30
0.0
  9
$PLIMCHECK
 70
     0
  9
$PEXTMIN
 10
1.0000000000E+20
 20
1.0000000000E+20
 30
1.0000000000E+20
  9
$PEXTMAX
 10
-1.0000000000E+20
 20
-1.0000000000E+20
 30
-1.0000000000E+20
  9
$PLIMMIN
 10
0.0
 20
0.0
  9
$PLIMMAX
 10
420.0
 20
297.0
  9
$UNITMODE
 70
     0
  9
$VISRETAIN
 70
     1
  9
$PLINEGEN
 70
     0
  9
$PSLTSCALE
 70
     1
  9
$TREEDEPTH
 70
  3020
  9
$CMLSTYLE
  2
Standard
  9
$CMLJUST
 70
     0
  9
$CMLSCALE
 40
20.0
  9
$PROXYGRAPHICS
 70
     1
  9
$MEASUREMENT
 70
     1
  9
$CELWEIGHT
370
    -1
  9
$ENDCAPS
280
     0
  9
$JOINSTYLE
280
     0
  9
$LWDISPLAY
290
     1
  9
$INSUNITS
 70
     4
  9
$HYPERLINKBASE
  1

  9
$STYLESHEET
  1

  9
$XEDIT
290
     1
  9
$CEPSNTYPE
380
     0
  9
$PSTYLEMODE
290
     1
  9
$FINGERPRINTGUID
  2
{c95d06e8-2afb-4bbc-9e82-16b7c5bec511}
  9
$VERSIONGUID
  2
{FAEB1C32-E019-11D5-929B-00C0DF256EC4}
  9
$EXTNAMES
290
     1
  9
$PSVPSCALE
 40
0.0
  9
$OLESTARTUP
290
     0
  0
ENDSEC
  0
SECTION
  2
CLASSES
  0
CLASS
  1
ACDBDICTIONARYWDFLT
  2
AcDbDictionaryWithDefault
  3
ObjectDBX Classes
 90
        0
280
     0
281
     0
  0
CLASS
  1
VISUALSTYLE
  2
AcDbVisualStyle
  3
ObjectDBX Classes
 90
     4095
280
     0
281
     0
  0
CLASS
  1
MATERIAL
  2
AcDbMaterial
  3
ObjectDBX Classes
 90
     1153
280
     0
281
     0
  0
CLASS
  1
SCALE
  2
AcDbScale
  3
ObjectDBX Classes
 90
     1153
280
     0
281
     0
  0
CLASS
  1
TABLESTYLE
  2
AcDbTableStyle
  3
ObjectDBX Classes
 90
     4095
280
     0
281
     0
  0
CLASS
  1
MLEADERSTYLE
  2
AcDbMLeaderStyle
  3
ACDB_MLEADERSTYLE_CLASS
 90
     4095
280
     0
281
     0
  0
CLASS
  1
SUN
  2
AcDbSun
  3
SCENEOE
 90
     1153
280
     0
281
     0
  0
CLASS
  1
ACDBPLACEHOLDER
  2
AcDbPlaceHolder
  3
ObjectDBX Classes
 90
        0
280
     0
281
     0
  0
CLASS
  1
LAYOUT
  2
AcDbLayout
  3
ObjectDBX Classes
 90
        0
280
     0
281
     0
  0
ENDSEC
  0
SECTION
  2
TABLES
  0
TABLE
  2
VPORT
  5
8
330
0
100
AcDbSymbolTable
 70
     1
  0
VPORT
  5
29
330
8
100
AcDbSymbolTableRecord
100
AcDbViewportTableRecord
  2
*Active
 70
     0
 10
0.0
 20
0.0
 11
1.0
 21
1.0
 12
139.7
 22
107.95
 13
0.0
 23
0.0
 14
10.0
 24
10.0
 15
10.0
 25
10.0
 16
0.0
 26
0.0
 36
1.0
 17
0.0
 27
0.0
 37
0.0
 40
215.9
 41
1.2941176471
 42
50.0
 43
0.0
 44
0.0
 50
0.0
 51
0.0
 71
     0
 72
  2000
 73
     1
 74
     3
 75
     0
 76
     0
 77
     0
 78
     0
281
     0
 65
     1
110
0.0
120
0.0
130
0.0
111
1.0
121
0.0
131
0.0
112
0.0
122
1.0
132
0.0
 79
     0
146
0.0
  0
ENDTAB
  0
TABLE
  2
LTYPE
  5
5
330
0
100
AcDbSymbolTable
 70
     6
  0
LTYPE
  5
14
330
5
100
AcDbSymbolTableRecord
100
AcDbLinetypeTableRecord
  2
ByBlock
 70
     0
  3

 72
    65
 73
     0
 40
0.0
  0
LTYPE
  5
15
330
5
100
AcDbSymbolTableRecord
100
AcDbLinetypeTableRecord
  2
ByLayer
 70
     0
  3

 72
    65
 73
     0
 40
0.0
  0
LTYPE
  5
16
330
5
100
AcDbSymbolTableRecord
100
AcDbLinetypeTableRecord
  2
Continuous
 70
     0
  3
Solid line
 72
    65
 73
     0
 40
0.0
  0
LTYPE
  5
6E
330
5
100
AcDbSymbolTableRecord
100
AcDbLinetypeTableRecord
  2
HIDDEN
 70
     0
  3
Hidden __ __ __ __ __ __ __ __ __ __ __ __ __ __
 72
    65
 73
     2
 40
1.905
 49
1.27
 74
     0
 49
-0.635
 74
     0
  0
LTYPE
  5
6F
330
5
100
AcDbSymbolTableRecord
100
AcDbLinetypeTableRecord
  2
PHANTOM
 70
     0
  3
Phantom ______  __  __  ______  __  __  ______
 72
    65
 73
     6
 40
12.7
 49
6.35
 74
     0
 49
-1.27
 74
     0
 49
1.27
 74
     0
 49
-1.27
 74
     0
 49
1.27
 74
     0
 49
-1.27
 74
     0
  0
LTYPE
  5
70
330
5
100
AcDbSymbolTableRecord
100
AcDbLinetypeTableRecord
  2
CENTER
 70
     0
  3
Center ____ _ ____ _ ____ _ ____ _ ____ _ ____
 72
    65
 73
     4
 40
10.16
 49
6.35
 74
     0
 49
-1.27
 74
     0
 49
1.27
 74
     0
 49
-1.27
 74
     0
  0
LTYPE
  5
71
330
5
100
AcDbSymbolTableRecord
100
AcDbLinetypeTableRecord
  2
CENTERX2
 70
     0
  3
Center (2x) ________  __  ________  __  _____
 72
    65
 73
     4
 40
20.32
 49
12.7
 74
     0
 49
-2.54
 74
     0
 49
2.54
 74
     0
 49
-2.54
 74
     0
  0
LTYPE
  5
72
330
5
100
AcDbSymbolTableRecord
100
AcDbLinetypeTableRecord
  2
DOT2
 70
     0
  3
Dot (.5x) ........................................
 72
    65
 73
     2
 40
0.635
 49
0.0
 74
     0
 49
-0.635
 74
     0
  0
ENDTAB
  0
TABLE
  2
LAYER
  5
2
330
0
100
AcDbSymbolTable
 70
    17
  0
LAYER
  5
10
330
2
100
AcDbSymbolTableRecord
100
AcDbLayerTableRecord
  2
0
 70
     0
 62
     7
  6
Continuous
370
    -3
390
F
  0
LAYER
  5
73
330
2
100
AcDbSymbolTableRecord
100
AcDbLayerTableRecord
  2
FORMAT
 70
     0
 62
     7
  6
Continuous
370
    -3
390
F
  0
LAYER
  5
74
330
2
100
AcDbSymbolTableRecord
100
AcDbLayerTableRecord
  2
YARDIMCI_GEOMETRI
 70
     0
 62
    -6
  6
Continuous
290
     0
370
    -3
390
F
  0
LAYER
  5
75
330
2
100
AcDbSymbolTableRecord
100
AcDbLayerTableRecord
  2
SAYFA_CERCEVESI
 70
     0
 62
     7
  6
Continuous
370
    25
390
F
  0
LAYER
  5
76
330
2
100
AcDbSymbolTableRecord
100
AcDbLayerTableRecord
  2
ANTET
 70
     0
 62
     7
  6
Continuous
370
    -3
390
F
  0
LAYER
  5
77
330
2
100
AcDbSymbolTableRecord
100
AcDbLayerTableRecord
  2
OLCU
 70
     0
 62
   150
  6
Continuous
370
    -3
390
F
  0
LAYER
  5
78
330
2
100
AcDbSymbolTableRecord
100
AcDbLayerTableRecord
  2
METIN
 70
     0
 62
    96
  6
Continuous
370
    -3
390
F
  0
LAYER
  5
79
330
2
100
AcDbSymbolTableRecord
100
AcDbLayerTableRecord
  2
BALON
 70
     0
 62
     5
  6
Continuous
370
    -3
390
F
  0
LAYER
  5
7A
330
2
100
AcDbSymbolTableRecord
100
AcDbLayerTableRecord
  2
VURGU
 70
     0
 62
     7
  6
Continuous
370
    -3
390
F
  0
LAYER
  5
7B
330
2
100
AcDbSymbolTableRecord
100
AcDbLayerTableRecord
  2
SILIK
 70
     0
 62
     7
  6
Continuous
370
    -3
390
F
  0
LAYER
  5
7C
330
2
100
AcDbSymbolTableRecord
100
AcDbLayerTableRecord
  2
MODEL
 70
     0
 62
     7
  6
Continuous
370
    -3
390
F
  0
LAYER
  5
7D
330
2
100
AcDbSymbolTableRecord
100
AcDbLayerTableRecord
  2
DETAYLANDıRMA
 70
     0
 62
   190
  6
Continuous
370
    -3
390
F
  0
LAYER
  5
7E
330
2
100
AcDbSymbolTableRecord
100
AcDbLayerTableRecord
  2
TOLERANS
 70
     0
 62
   230
  6
Continuous
370
    -3
390
F
  0
LAYER
  5
7F
330
2
100
AcDbSymbolTableRecord
100
AcDbLayerTableRecord
  2
MERKEZ_CIZGILERI
 70
     0
 62
    30
  6
Continuous
370
    -3
390
F
  0
LAYER
  5
80
330
2
100
AcDbSymbolTableRecord
100
AcDbLayerTableRecord
  2
KESIT-DETAY_CIZGILERI
 70
     0
 62
     7
  6
Continuous
370
    -3
390
F
  0
LAYER
  5
81
330
2
100
AcDbSymbolTableRecord
100
AcDbLayerTableRecord
  2
\U+041E\U+0421\U+0415\U+0412\U+042B\U+0415
 70
     0
 62
     7
  6
Continuous
370
    -3
390
F
  0
LAYER
  5
82
330
2
100
AcDbSymbolTableRecord
100
AcDbLayerTableRecord
  2
\U+0412\U+041E\U+0414\U+042F\U+041D\U+042B\U+0415_\U+0417\U+041D\U+0410\U+041A\U+0418
 70
     0
 62
    11
  6
Continuous
370
    -3
390
F
  0
ENDTAB
  0
TABLE
  2
STYLE
  5
3
330
0
100
AcDbSymbolTable
 70
     1
  0
STYLE
  5
11
330
3
100
AcDbSymbolTableRecord
100
AcDbTextStyleTableRecord
  2
Standard
 70
     0
 40
0.0
 41
1.0
 50
0.0
 71
     0
 42
3.5
  3
txt
  4

  0
ENDTAB
  0
TABLE
  2
VIEW
  5
6
330
0
100
AcDbSymbolTable
 70
     0
  0
ENDTAB
  0
TABLE
  2
UCS
  5
7
330
0
100
AcDbSymbolTable
 70
     0
  0
ENDTAB
  0
TABLE
  2
APPID
  5
9
330
0
100
AcDbSymbolTable
 70
     1
  0
APPID
  5
12
330
9
100
AcDbSymbolTableRecord
100
AcDbRegAppTableRecord
  2
ACAD
 70
     0
  0
ENDTAB
  0
TABLE
  2
DIMSTYLE
  5
A
330
0
100
AcDbSymbolTable
 70
     1
100
AcDbDimStyleTable
  0
DIMSTYLE
105
27
330
A
100
AcDbSymbolTableRecord
100
AcDbDimStyleTableRecord
  2
ISO-25
 70
     0
 41
2.5
 42
0.625
 43
3.75
 44
1.25
 73
     0
 74
     0
 77
     1
 78
     8
140
2.5
141
2.5
143
0.0393700787
147
0.625
171
     3
172
     1
178
     0
271
     2
272
     2
274
     3
278
    44
283
     0
284
     8
340
11
  0
ENDTAB
  0
TABLE
  2
BLOCK_RECORD
  5
1
330
0
100
AcDbSymbolTable
 70
     3
  0
BLOCK_RECORD
  5
1F
330
1
100
AcDbSymbolTableRecord
100
AcDbBlockTableRecord
  2
*Model_Space
340
22
  0
BLOCK_RECORD
  5
1B
330
1
100
AcDbSymbolTableRecord
100
AcDbBlockTableRecord
  2
*Paper_Space
340
1E
  0
BLOCK_RECORD
  5
23
330
1
100
AcDbSymbolTableRecord
100
AcDbBlockTableRecord
  2
*Paper_Space0
340
26
  0
BLOCK_RECORD
  5
88
330
1
100
AcDbSymbolTableRecord
100
AcDbBlockTableRecord
  2
SW_CENTERMARKSYMBOL_0
340
0
102
{BLKREFS
331
93
102
}
  0
BLOCK_RECORD
  5
B2
330
1
100
AcDbSymbolTableRecord
100
AcDbBlockTableRecord
  2
SW_CENTERMARKSYMBOL_1
340
0
102
{BLKREFS
331
BD
102
}
  0
ENDTAB
  0
ENDSEC
  0
SECTION
  2
BLOCKS
  0
BLOCK
  5
20
330
1F
100
AcDbEntity
  8
0
100
AcDbBlockBegin
  2
*Model_Space
 70
     0
 10
0.0
 20
0.0
 30
0.0
  3
*Model_Space
  1

  0
ENDBLK
  5
21
330
1F
100
AcDbEntity
  8
0
100
AcDbBlockEnd
  0
BLOCK
  5
1C
330
1B
100
AcDbEntity
 67
     1
  8
0
100
AcDbBlockBegin
  2
*Paper_Space
 70
     0
 10
0.0
 20
0.0
 30
0.0
  3
*Paper_Space
  1

  0
ENDBLK
  5
1D
330
1B
100
AcDbEntity
 67
     1
  8
0
100
AcDbBlockEnd
  0
BLOCK
  5
24
330
23
100
AcDbEntity
  8
0
100
AcDbBlockBegin
  2
*Paper_Space0
 70
     0
 10
0.0
 20
0.0
 30
0.0
  3
*Paper_Space0
  1

  0
ENDBLK
  5
25
330
23
100
AcDbEntity
  8
0
100
AcDbBlockEnd
  0
BLOCK
  5
89
330
88
100
AcDbEntity
  8
0
100
AcDbBlockBegin
  2
SW_CENTERMARKSYMBOL_0
 70
     0
 10
0.0
 20
0.0
 30
0.0
  3
SW_CENTERMARKSYMBOL_0
  1

  0
LINE
  5
8B
330
88
100
AcDbEntity
  8
FORMAT
 62
     0
100
AcDbLine
 10
0.0
 20
0.0
 30
0.0
 11
0.0
 21
2.5
 31
0.0
  0
LINE
  5
8C
330
88
100
AcDbEntity
  8
FORMAT
 62
     0
100
AcDbLine
 10
0.0
 20
0.0
 30
0.0
 11
-2.5
 21
0.0
 31
0.0
  0
LINE
  5
8D
330
88
100
AcDbEntity
  8
FORMAT
 62
     0
100
AcDbLine
 10
0.0
 20
0.0
 30
0.0
 11
0.0
 21
-2.5
 31
0.0
  0
LINE
  5
8E
330
88
100
AcDbEntity
  8
FORMAT
 62
     0
100
AcDbLine
 10
0.0
 20
0.0
 30
0.0
 11
2.5
 21
0.0
 31
0.0
  0
LINE
  5
8F
330
88
100
AcDbEntity
  8
FORMAT
 62
     0
100
AcDbLine
 10
0.0
 20
5.0
 30
0.0
 11
0.0
 21
142.5
 31
0.0
  0
LINE
  5
90
330
88
100
AcDbEntity
  8
FORMAT
 62
     0
100
AcDbLine
 10
-5.0
 20
0.0
 30
0.0
 11
-142.5
 21
0.0
 31
0.0
  0
LINE
  5
91
330
88
100
AcDbEntity
  8
FORMAT
 62
     0
100
AcDbLine
 10
0.0
 20
-5.0
 30
0.0
 11
0.0
 21
-142.5
 31
0.0
  0
LINE
  5
92
330
88
100
AcDbEntity
  8
FORMAT
 62
     0
100
AcDbLine
 10
5.0
 20
0.0
 30
0.0
 11
142.5
 21
0.0
 31
0.0
  0
ENDBLK
  5
8A
330
88
100
AcDbEntity
  8
0
100
AcDbBlockEnd
  0
BLOCK
  5
B3
330
B2
100
AcDbEntity
  8
0
100
AcDbBlockBegin
  2
SW_CENTERMARKSYMBOL_1
 70
     0
 10
0.0
 20
0.0
 30
0.0
  3
SW_CENTERMARKSYMBOL_1
  1

  0
LINE
  5
B5
330
B2
100
AcDbEntity
  8
FORMAT
 62
     0
100
AcDbLine
 10
0.0
 20
0.0
 30
0.0
 11
0.0
 21
2.5
 31
0.0
  0
LINE
  5
B6
330
B2
100
AcDbEntity
  8
FORMAT
 62
     0
100
AcDbLine
 10
0.0
 20
0.0
 30
0.0
 11
-2.5
 21
0.0
 31
0.0
  0
LINE
  5
B7
330
B2
100
AcDbEntity
  8
FORMAT
 62
     0
100
AcDbLine
 10
0.0
 20
0.0
 30
0.0
 11
0.0
 21
-2.5
 31
0.0
  0
LINE
  5
B8
330
B2
100
AcDbEntity
  8
FORMAT
 62
     0
100
AcDbLine
 10
0.0
 20
0.0
 30
0.0
 11
2.5
 21
0.0
 31
0.0
  0
LINE
  5
B9
330
B2
100
AcDbEntity
  8
FORMAT
 62
     0
100
AcDbLine
 10
0.0
 20
5.0
 30
0.0
 11
0.0
 21
57.5
 31
0.0
  0
LINE
  5
BA
330
B2
100
AcDbEntity
  8
FORMAT
 62
     0
100
AcDbLine
 10
-5.0
 20
0.0
 30
0.0
 11
-57.5
 21
0.0
 31
0.0
  0
LINE
  5
BB
330
B2
100
AcDbEntity
  8
FORMAT
 62
     0
100
AcDbLine
 10
0.0
 20
-5.0
 30
0.0
 11
0.0
 21
-57.5
 31
0.0
  0
LINE
  5
BC
330
B2
100
AcDbEntity
  8
FORMAT
 62
     0
100
AcDbLine
 10
5.0
 20
0.0
 30
0.0
 11
57.5
 21
0.0
 31
0.0
  0
ENDBLK
  5
B4
330
B2
100
AcDbEntity
  8
0
100
AcDbBlockEnd
  0
ENDSEC
  0
SECTION
  2
ENTITIES
  0
LINE
  5
83
330
1F
100
AcDbEntity
  8
0
  6
Continuous
 62
     7
370
    25
100
AcDbLine
 10
194.9167441421
 20
54.3862139987
 30
0.0
 11
356.1412782519
 21
54.3862139987
 31
0.0
  0
LINE
  5
84
330
1F
100
AcDbEntity
  8
0
  6
Continuous
 62
     7
370
    25
100
AcDbLine
 10
356.1412782519
 20
164.3862139987
 30
0.0
 11
194.8911468054
 21
164.3862139987
 31
0.0
  0
CIRCLE
  5
85
330
1F
100
AcDbEntity
  8
0
  6
Continuous
 62
     7
370
    25
100
AcDbCircle
 10
66.1412782519
 20
109.3862139987
 30
0.0
 40
114.6
  0
CIRCLE
  5
86
330
1F
100
AcDbEntity
  8
0
  6
Continuous
 62
     7
370
    25
100
AcDbCircle
 10
66.1412782519
 20
109.3862139987
 30
0.0
 40
140.0000000000001
  0
LINE
  5
87
330
1F
100
AcDbEntity
  8
0
  6
Continuous
 62
     7
370
    25
100
AcDbLine
 10
356.1412782519
 20
164.3862139987
 30
0.0
 11
356.1412782519
 21
54.3862139987
 31
0.0
  0
INSERT
  5
93
330
1F
100
AcDbEntity
  8
FORMAT
100
AcDbBlockReference
  2
SW_CENTERMARKSYMBOL_0
 10
66.1412782519
 20
109.3862139987
 30
0.0
  0
LINE
  5
94
330
1F
100
AcDbEntity
  8
0
  6
Continuous
 62
     7
370
    25
100
AcDbLine
 10
-73.8587217481
 20
-128.3420551546
 30
0.0
 11
-73.8587217481
 21
-818.3420551546
 31
0.0
  0
LINE
  5
95
330
1F
100
AcDbEntity
  8
0
  6
Continuous
 62
     7
370
    25
100
AcDbLine
 10
206.1412782519
 20
-418.375441499
 30
0.0
 11
206.1412782519
 21
-128.3420551546
 31
0.0
  0
LINE
  5
96
330
1F
100
AcDbEntity
  8
0
  6
Continuous
 62
     7
370
    25
100
AcDbLine
 10
206.1412782519
 20
-818.3420551546
 30
0.0
 11
206.1412782519
 21
-528.3420551546
 31
0.0
  0
LINE
  5
97
330
1F
100
AcDbEntity
  8
0
  6
Continuous
 62
     7
370
    25
100
AcDbLine
 10
206.1412782519
 20
-528.3420551546
 30
0.0
 11
356.1412782519
 21
-528.3420551546
 31
0.0
  0
LINE
  5
98
330
1F
100
AcDbEntity
  8
0
  6
Continuous
 62
     7
370
    25
100
AcDbLine
 10
356.1412782519
 20
-418.3420551546
 30
0.0
 11
206.1281531151
 21
-418.3420551546
 31
0.0
  0
LWPOLYLINE
  5
99
330
1F
100
AcDbEntity
  8
0
  6
Continuous
 62
     7
370
    25
100
AcDbPolyline
 90
       40
 70
   128
 43
0.0
 10
206.1281471293
 20
-418.375441499
 10
206.0955478615
 20
-418.458285691
 10
205.9049328613
 20
-418.9464749136
 10
205.5983446976
 20
-419.7389509461
 10
205.1754226984
 20
-420.8492621068
 10
204.6296980883
 20
-422.3120858194
 10
203.9852418169
 20
-424.0880371327
 10
203.2541444385
 20
-426.1727182807
 10
202.4564927217
 20
-428.5443130694
 10
201.5884590676
 20
-431.2595259463
 10
200.6912040014
 20
-434.2436853781
 10
199.7541759253
 20
-437.601402271
 10
198.8344304532
 20
-441.2099428505
 10
197.933264215
 20
-445.1624058161
 10
197.1044907079
 20
-449.3344934962
 10
196.3902361474
 20
-453.600423827
 10
195.793421458
 20
-458.0228437547
 10
195.3225809985
 20
-462.7256021528
 10
195.0166375356
 20
-467.5232725939
 10
194.8936895576
 20
-471.8906353371
 10
194.9184728201
 20
-476.2688009323
 10
195.0991188302
 20
-480.7612172783
 10
195.4297425162
 20
-485.1956196735
 10
196.4120821866
 20
-493.2287933937
 10
197.0706080788
 20
-497.163402217
 10
197.8104107329
 20
-500.9420632758
 10
198.6368442187
 20
-504.6479040367
 10
199.5071671306
 20
-508.1480936593
 10
200.4224400241
 20
-511.5051776008
 10
201.3371011539
 20
-514.608391679
 10
202.2567749663
 20
-517.5284015226
 10
203.1264607548
 20
-520.1388523244
 10
203.9449347423
 20
-522.4833353279
 10
204.6617937878
 20
-524.4589136683
 10
205.1952024955
 20
-525.8873854379
 10
205.6188578025
 20
-526.9983241013
 10
205.9284500992
 20
-527.7982670477
 10
206.1027580002
 20
-528.2439295609
 10
206.1412782519
 20
-528.3420551546
 10
206.1412782519
 20
-528.3420551546
  0
LINE
  5
9A
330
1F
100
AcDbEntity
  8
0
  6
Continuous
 62
     7
370
    25
100
AcDbLine
 10
206.1412782519
 20
-818.3420551546
 30
0.0
 11
-73.8587217481
 21
-818.3420551546
 31
0.0
  0
LINE
  5
9B
330
1F
100
AcDbEntity
  8
0
  6
Continuous
 62
     7
370
    25
100
AcDbLine
 10
206.1412782519
 20
-128.3420551546
 30
0.0
 11
-73.8587217481
 21
-128.3420551546
 31
0.0
  0
LINE
  5
9C
330
1F
100
AcDbEntity
  8
0
  6
Continuous
 62
     7
370
    25
100
AcDbLine
 10
356.1412782519
 20
-418.3420551546
 30
0.0
 11
356.1412782519
 21
-528.3420551546
 31
0.0
  0
LINE
  5
9D
330
1F
100
AcDbEntity
  8
0
  6
Continuous
 62
     7
370
    25
100
AcDbLine
 10
206.1412782519
 20
754.1428423767
 30
0.0
 11
206.1412782519
 21
1044.1428423767
 31
0.0
  0
LINE
  5
9E
330
1F
100
AcDbEntity
  8
0
  6
Continuous
 62
     7
370
    25
100
AcDbLine
 10
206.1412782519
 20
354.1428423767
 30
0.0
 11
206.1412782519
 21
644.1759598764
 31
0.0
  0
LINE
  5
9F
330
1F
100
AcDbEntity
  8
0
  6
Continuous
 62
     7
370
    25
100
AcDbLine
 10
-73.8587217481
 20
1044.1428423767
 30
0.0
 11
-73.8587217481
 21
354.1428423767
 31
0.0
  0
LINE
  5
A0
330
1F
100
AcDbEntity
  8
0
  6
Continuous
 62
     7
370
    25
100
AcDbLine
 10
206.1282827111
 20
644.1428423767
 30
0.0
 11
356.1412782519
 21
644.1428423767
 31
0.0
  0
LINE
  5
A1
330
1F
100
AcDbEntity
  8
0
  6
Continuous
 62
     7
370
    25
100
AcDbLine
 10
356.1412782519
 20
754.1428423767
 30
0.0
 11
206.1412782519
 21
754.1428423767
 31
0.0
  0
SPLINE
  5
A2
330
1F
100
AcDbEntity
  8
0
  6
Continuous
 62
     7
370
    25
100
AcDbSpline
210
0.0
220
0.0
230
1.0
 70
     8
 71
     3
 72
    45
 73
    41
 74
     0
 42
0.000000001
 43
0.00000001
 40
0.0
 40
0.0
 40
0.0
 40
0.0
 40
0.0250236386992643
 40
0.0502309014365794
 40
0.0760107070545815
 40
0.1019843621338255
 40
0.1270061493324571
 40
0.1521942014757589
 40
0.1778892931963038
 40
0.2037527875644459
 40
0.2298239444882082
 40
0.2560629141399159
 40
0.2828255748979642
 40
0.3097691025611981
 40
0.3368770312520114
 40
0.3641821475939074
 40
0.3921327880967511
 40
0.4203187178490847
 40
0.4461910490822177
 40
0.4722649142880843
 40
0.4989901911127443
 40
0.5259457063511467
 40
0.5501589863082343
 40
0.5745392985794876
 40
0.5994319328723146
 40
0.6244948918041358
 40
0.6741007324432665
 40
0.699469958479476
 40
0.7249957092838571
 40
0.7515488410428883
 40
0.7782778210751546
 40
0.8055646216653221
 40
0.8330479439785452
 40
0.8600162202125459
 40
0.8871869629379312
 40
0.9150200327713588
 40
0.9430927301397881
 40
0.968511380698625
 40
0.9941212843604389
 40
1.0
 40
1.0
 40
1.0
 40
1.0
 10
206.1412782519387
 20
754.1428423767106
 30
0.0
 10
206.1281240835737
 20
754.1094035967951
 30
0.0
 10
206.1017192212528
 20
754.0422806624258
 30
0.0
 10
205.8876999696567
 20
753.4954154166716
 30
0.0
 10
205.5458233463254
 20
752.6119545929126
 30
0.0
 10
205.0743749319591
 20
751.3727915736009
 30
0.0
 10
204.494841873981
 20
749.8136908251092
 30
0.0
 10
203.8210273973481
 20
747.9476252349388
 30
0.0
 10
203.0577696564934
 20
745.7557095050025
 30
0.0
 10
202.2206564295221
 20
743.2417379186509
 30
0.0
 10
201.3324135000855
 20
740.4259167845015
 30
0.0
 10
200.4101579253212
 20
737.3056314817143
 30
0.0
 10
199.4771241868114
 20
733.890454152158
 30
0.0
 10
198.5587250395275
 20
730.1910871533148
 30
0.0
 10
197.6853406299475
 20
726.2377411625342
 30
0.0
 10
196.879749431742
 20
722.0255492077878
 30
0.0
 10
196.1708245337093
 20
717.56949849387
 30
0.0
 10
195.6059457222989
 20
713.0329738543235
 30
0.0
 10
195.1982894405747
 20
708.4871357692596
 30
0.0
 10
194.9476351902846
 20
703.9495040550735
 30
0.0
 10
194.8567963742975
 20
699.3089714098344
 30
0.0
 10
194.933616224846
 20
694.7750375347953
 30
0.0
 10
195.1583624674938
 20
690.4127613058372
 30
0.0
 10
195.5089656196091
 20
686.2303802446291
 30
0.0
 10
195.9883462057778
 20
682.0896540550303
 30
0.0
 10
196.7798221410504
 20
676.703366626866
 30
0.0
 10
197.767901440568
 20
671.5683756664865
 30
0.0
 10
198.8735054816713
 20
666.7894680378353
 30
0.0
 10
199.7635576005425
 20
663.317303712472
 30
0.0
 10
200.6856028891642
 20
660.023599962697
 30
0.0
 10
201.6206119922327
 20
656.9254596140258
 30
0.0
 10
202.5336166498259
 20
654.086923067117
 30
0.0
 10
203.391024516194
 20
651.5601340156517
 30
0.0
 10
204.1656878979565
 20
649.3744284661052
 30
0.0
 10
204.8413238809538
 20
647.5338109322504
 30
0.0
 10
205.3997625892302
 20
646.054245597314
 30
0.0
 10
205.8085162809896
 20
644.9938047191082
 30
0.0
 10
206.0498501756202
 20
644.3754799193555
 30
0.0
 10
206.1536858569416
 20
644.1112345354209
 30
0.0
 10
206.1322743102906
 20
644.1657771359357
 30
0.0
 10
206.1282769170432
 20
644.1759598764236
 30
0.0
  0
LINE
  5
A3
330
1F
100
AcDbEntity
  8
0
  6
Continuous
 62
     7
370
    25
100
AcDbLine
 10
-73.8587217481
 20
1044.1428423767
 30
0.0
 11
206.1412782519
 21
1044.1428423767
 31
0.0
  0
LINE
  5
A4
330
1F
100
AcDbEntity
  8
0
  6
Continuous
 62
     7
370
    25
100
AcDbLine
 10
-73.8587217481
 20
354.1428423767
 30
0.0
 11
206.1412782519
 21
354.1428423767
 31
0.0
  0
LINE
  5
A5
330
1F
100
AcDbEntity
  8
0
  6
Continuous
 62
     7
370
    25
100
AcDbLine
 10
356.1412782519
 20
754.1428423767
 30
0.0
 11
356.1412782519
 21
644.1428423767
 31
0.0
  0
LINE
  5
A6
330
1F
100
AcDbEntity
  8
0
  6
Continuous
 62
     7
370
    25
100
AcDbLine
 10
513.0227740732
 20
-30.6137860013
 30
0.0
 11
1203.0227740732
 21
-30.6137860013
 31
0.0
  0
LINE
  5
A7
330
1F
100
AcDbEntity
  8
0
  6
Continuous
 62
     7
370
    25
100
AcDbLine
 10
1203.0227740732
 20
249.3862139987
 30
0.0
 11
513.0227740732
 21
249.3862139987
 31
0.0
  0
LINE
  5
A8
330
1F
100
AcDbEntity
  8
0
  6
Continuous
 62
     7
370
    25
100
AcDbLine
 10
1203.0227740732
 20
249.3862139987
 30
0.0
 11
1203.0227740732
 21
-30.6137860013
 31
0.0
  0
LINE
  5
A9
330
1F
100
AcDbEntity
  8
0
  6
Continuous
 62
     7
370
    25
100
AcDbLine
 10
513.0227740732
 20
249.3862139987
 30
0.0
 11
513.0227740732
 21
-30.6137860013
 31
0.0
  0
LINE
  5
AA
330
1F
100
AcDbEntity
  8
0
  6
Continuous
 62
     7
370
    25
100
AcDbLine
 10
-203.2426626542
 20
249.3862139987
 30
0.0
 11
-893.2426626542
 21
249.3862139987
 31
0.0
  0
LINE
  5
AB
330
1F
100
AcDbEntity
  8
0
  6
Continuous
 62
     7
370
    25
100
AcDbLine
 10
-893.2426626542
 20
-30.6137860013
 30
0.0
 11
-203.2426626542
 21
-30.6137860013
 31
0.0
  0
CIRCLE
  5
AC
330
1F
100
AcDbEntity
  8
0
  6
Continuous
 62
     7
370
    25
100
AcDbCircle
 10
-548.2426626542
 20
109.3862139987
 30
0.0
 40
45.00000000000011
  0
CIRCLE
  5
AD
330
1F
100
AcDbEntity
  8
0
  6
Continuous
 62
     7
370
    25
100
AcDbCircle
 10
-548.2426626542
 20
109.3862139987
 30
0.0
 40
55.00000000000006
  0
LINE
  5
AE
330
1F
100
AcDbEntity
  8
0
  6
Continuous
 62
     7
370
    25
100
AcDbLine
 10
-893.2426626542
 20
109.3862139987
 30
0.0
 11
-893.2426626542
 21
249.3862139987
 31
0.0
  0
LINE
  5
AF
330
1F
100
AcDbEntity
  8
0
  6
Continuous
 62
     7
370
    25
100
AcDbLine
 10
-893.2426626542
 20
-30.6137860013
 30
0.0
 11
-893.2426626542
 21
109.3862139987
 31
0.0
  0
LINE
  5
B0
330
1F
100
AcDbEntity
  8
0
  6
Continuous
 62
     7
370
    25
100
AcDbLine
 10
-203.2426626542
 20
109.3862139987
 30
0.0
 11
-203.2426626542
 21
249.3862139987
 31
0.0
  0
LINE
  5
B1
330
1F
100
AcDbEntity
  8
0
  6
Continuous
 62
     7
370
    25
100
AcDbLine
 10
-203.2426626542
 20
-30.6137860013
 30
0.0
 11
-203.2426626542
 21
109.3862139987
 31
0.0
  0
INSERT
  5
BD
330
1F
100
AcDbEntity
  8
FORMAT
100
AcDbBlockReference
  2
SW_CENTERMARKSYMBOL_1
 10
-548.2426626542
 20
109.3862139987
 30
0.0
  0
LINE
  5
BE
330
1F
100
AcDbEntity
  8
0
  6
Continuous
 62
     7
370
    25
100
AcDbLine
 10
1165.6335830527
 20
-490.746357595
 30
0.0
 11
1046.7032806828
 21
-422.0893554422
 31
0.0
  0
LINE
  5
BF
330
1F
100
AcDbEntity
  8
0
  6
Continuous
 62
     7
370
    25
100
AcDbLine
 10
936.6943405462
 20
-358.5825460818
 30
0.0
 11
677.729904034
 21
-209.0855590161
 31
0.0
  0
LINE
  5
C0
330
1F
100
AcDbEntity
  8
0
  6
Continuous
 62
     7
370
    25
100
AcDbLine
 10
537.7412814649
 20
-451.5792404827
 30
0.0
 11
1025.6449604837
 21
-733.2400390616
 31
0.0
  0
LINE
  5
C1
330
1F
100
AcDbEntity
  8
0
  6
Continuous
 62
     7
370
    25
100
AcDbLine
 10
974.2832224841
 20
-463.8965651488
 30
0.0
 11
1084.2461639504
 21
-400.4163102555
 31
0.0
  0
LINE
  5
C2
330
1F
100
AcDbEntity
  8
0
  6
Continuous
 62
     7
370
    25
100
AcDbLine
 10
1029.2506336554
 20
-305.1509353936
 30
0.0
 11
919.2869517846
 21
-368.6316177134
 31
0.0
  0
SPLINE
  5
C3
330
1F
100
AcDbEntity
  8
0
  6
Continuous
 62
     7
370
    25
100
AcDbSpline
210
0.0
220
0.0
230
1.0
 70
     8
 71
     3
 72
    35
 73
    31
 74
     0
 42
0.000000001
 43
0.00000001
 40
0.0
 40
0.0
 40
0.0
 40
0.0
 40
0.0333617088503655
 40
0.0673493422473071
 40
0.1013377886809699
 40
0.1359660667242839
 40
0.1693253071396712
 40
0.2032435007680546
 40
0.2371629317343094
 40
0.2716443426647027
 40
0.3064026109220013
 40
0.341733629059653
 40
0.3770646517480336
 40
0.4129859714292119
 40
0.4491264718331748
 40
0.4855298643402154
 40
0.5227938746563697
 40
0.5603715744215864
 40
0.5948647667288017
 40
0.6300610660536045
 40
0.6652566251775274
 40
0.7011939267867299
 40
0.7334752590881147
 40
0.7663200577030873
 40
0.7991661066997658
 40
0.8325802375885989
 40
0.8825649764547724
 40
0.9325554683344915
 40
0.9665865969308209
 40
1.0
 40
1.0
 40
1.0
 40
1.0
 10
911.7915086596877
 20
-391.563008136137
 30
0.0
 10
911.8058487863902
 20
-392.7710437943541
 30
0.0
 10
911.8347980858848
 20
-395.2097799921051
 30
0.0
 10
912.0712966379201
 20
-399.1073352270342
 30
0.0
 10
912.4549353742409
 20
-403.1843980208388
 30
0.0
 10
912.9958373309305
 20
-407.3549562560805
 30
0.0
 10
913.6907355280562
 20
-411.6004453768824
 30
0.0
 10
914.5347319047943
 20
-415.8632293317283
 30
0.0
 10
915.5455632267464
 20
-420.188304229546
 30
0.0
 10
916.7274787343673
 20
-424.5330835613387
 30
0.0
 10
918.0949696098317
 20
-428.8891970416224
 30
0.0
 10
919.6503360999939
 20
-433.1996853223751
 30
0.0
 10
921.4061626319785
 20
-437.4431580757878
 30
0.0
 10
923.3662965284658
 20
-441.5693267008866
 30
0.0
 10
925.5441395481192
 20
-445.5499840811427
 30
0.0
 10
927.9529787440171
 20
-449.3540897639608
 30
0.0
 10
930.6025805502026
 20
-452.9386883076171
 30
0.0
 10
933.4110135512686
 20
-456.1551260743389
 30
0.0
 10
936.3488581137681
 20
-458.9867526156651
 30
0.0
 10
939.3819045278877
 20
-461.4206478885723
 30
0.0
 10
942.5990793288082
 20
-463.5239651456874
 30
0.0
 10
945.845923010829
 20
-465.1895538860901
 30
0.0
 10
949.1002969237006
 20
-466.4508891069133
 30
0.0
 10
952.306134244695
 20
-467.3283642898168
 30
0.0
 10
955.5727034673627
 20
-467.8659071478046
 30
0.0
 10
959.3987953495939
 20
-468.0838715373416
 30
0.0
 10
963.7363642804785
 20
-467.7519495515549
 30
0.0
 10
967.9344167769781
 20
-466.7425907174219
 30
0.0
 10
971.4546206919136
 20
-465.4200604057878
 30
0.0
 10
973.3429314771806
 20
-464.3954647522336
 30
0.0
 10
974.2784393357114
 20
-463.8878590693158
 30
0.0
  0
SPLINE
  5
C4
330
1F
100
AcDbEntity
  8
0
  6
Continuous
 62
     7
370
    25
100
AcDbSpline
210
0.0
220
0.0
230
1.0
 70
     8
 71
     3
 72
    17
 73
    13
 74
     0
 42
0.000000001
 43
0.00000001
 40
0.0
 40
0.0
 40
0.0
 40
0.0
 40
0.0812968656361313
 40
0.1894406773442532
 40
0.2983431045516488
 40
0.4096991865513487
 40
0.521937318758061
 40
0.6208677500607808
 40
0.7215305012663045
 40
0.8221902815258108
 40
0.9246799545757449
 40
1.0
 40
1.0
 40
1.0
 40
1.0
 10
919.3035698820338
 20
-368.6595690272853
 30
0.0
 10
918.8958100399414
 20
-368.9044360379368
 30
0.0
 10
917.9456344080108
 20
-369.4750333419549
 30
0.0
 10
916.6657503178461
 20
-370.7686235944941
 30
0.0
 10
915.4196596922596
 20
-372.4998596078743
 30
0.0
 10
914.3511988857945
 20
-374.619590599668
 30
0.0
 10
913.4948876799842
 20
-377.0188239844265
 30
0.0
 10
912.8321228861696
 20
-379.6465151751353
 30
0.0
 10
912.3424142508115
 20
-382.4463143252987
 30
0.0
 10
912.0008014227682
 20
-385.5423523220593
 30
0.0
 10
911.8193712760864
 20
-388.5940968773517
 30
0.0
 10
911.7997993225496
 20
-390.6795935292241
 30
0.0
 10
911.7915086596877
 20
-391.563008136137
 30
0.0
  0
LWPOLYLINE
  5
C5
330
1F
100
AcDbEntity
  8
0
  6
Continuous
 62
     7
370
    25
100
AcDbPolyline
 90
      126
 70
   128
 43
0.0
 10
706.7305421156
 20
-273.1838319218
 10
706.6055071988
 20
-267.5122979526
 10
706.2307182973
 20
-261.9994530126
 10
705.6071221605
 20
-256.6592230265
 10
704.7362940464
 20
-251.5050978787
 10
703.6204337423
 20
-246.5500973367
 10
702.2623600082
 20
-241.806738162
 10
700.6655034562
 20
-237.2870024913
 10
698.8338978845
 20
-233.0023075693
 10
696.7721700879
 20
-228.9634769073
 10
694.4855281696
 20
-225.180712942
 10
691.9797483856
 20
-221.6635712634
 10
689.261160553
 20
-218.4209364768
 10
686.3366320608
 20
-215.4609997589
 10
683.2135505216
 20
-212.7912381669
 10
679.8998051105
 20
-210.4183957502
 10
676.403766636
 20
-208.3484665147
 10
672.7342663947
 20
-206.5866792812
 10
668.9005738627
 20
-205.1374844774
 10
664.91237328
 20
-204.0045428949
 10
660.7797391874
 20
-203.1907164425
 10
656.5131109773
 20
-202.6980609166
 10
652.1232665229
 20
-202.5278208077
 10
647.6212949522
 20
-202.680426157
 10
643.0185686362
 20
-203.1554914704
 10
638.3267144609
 20
-203.9518166914
 10
633.5575844572
 20
-205.0673902336
 10
628.7232258615
 20
-206.4993940613
 10
623.835850683
 20
-208.2442108086
 10
618.9078048557
 20
-210.297432917
 10
613.9515370509
 20
-212.6538737692
 10
608.9795672315
 20
-215.307580791
 10
604.0044550245
 20
-218.2518504883
 10
599.0387679952
 20
-221.4792453803
 10
594.0950499
 20
-224.9816127874
 10
589.1857889999
 20
-228.7501054256
 10
584.323386514
 20
-232.7752037553
 10
579.5201252929
 20
-237.0467400288
 10
574.7881387914
 20
-241.553923975
 10
570.139380418
 20
-246.2853700558
 10
565.5855933398
 20
-251.2291262279
 10
561.1382808183
 20
-256.3727041341
 10
556.8086771508
 20
-261.7031106503
 10
552.607719292
 20
-267.2068807069
 10
548.5460192259
 20
-272.8701113031
 10
544.6338371596
 20
-278.678496627
 10
540.8810556043
 20
-284.6173641932
 10
537.297154412
 20
-290.6717119066
 10
533.8911868281
 20
-296.8262459597
 10
530.6717566224
 20
-303.0654194651
 10
527.646996355
 20
-309.3734717292
 10
524.8245468328
 20
-315.7344680644
 10
522.2115378083
 20
-322.132340042
 10
519.814569969
 20
-328.5509260821
 10
517.6396982637
 20
-334.9740122792
 10
515.6924166072
 20
-341.3853733603
 10
513.9776440018
 20
-347.7688136708
 10
512.499712112
 20
-354.1082080865
 10
511.262354322
 20
-360.3875427468
 10
510.2686963051
 20
-366.5909555075
 10
509.5212481275
 20
-372.7027760095
 10
509.0218979082
 20
-378.7075652639
 10
508.7719070493
 20
-384.5901546518
 10
508.7719070493
 20
-390.3356842419
 10
509.0218979082
 20
-395.9296403278
 10
509.5212481275
 20
-401.357892091
 10
510.2686963051
 20
-406.6067272963
 10
511.262354322
 20
-411.6628869306
 10
512.499712112
 20
-416.5135986957
 10
513.9776440018
 20
-421.1466092728
 10
515.6924166072
 20
-425.5502152751
 10
517.6396982637
 20
-429.7132928116
 10
519.814569969
 20
-433.6253255872
 10
522.2115378083
 20
-437.2764314675
 10
524.8245468328
 20
-440.6573874422
 10
527.646996355
 20
-443.7596529231
 10
530.6717566224
 20
-446.5753913184
 10
533.8911868281
 20
-449.0974898285
 10
537.297154412
 20
-451.3195774137
 10
540.8810556043
 20
-453.2360408879
 10
544.6338371596
 20
-454.842039098
 10
548.5460192259
 20
-456.1335151532
 10
552.607719292
 20
-457.1072066728
 10
556.8086771508
 20
-457.7606540276
 10
561.1382808183
 20
-458.0922065529
 10
565.5855933398
 20
-458.1010267182
 10
570.139380418
 20
-457.7870922429
 10
574.7881387914
 20
-457.1511961529
 10
579.5201252929
 20
-456.1949447769
 10
584.323386514
 20
-454.9207536887
 10
589.1857889999
 20
-453.3318416058
 10
594.0950499
 20
-451.4322222578
 10
599.0387679952
 20
-449.2266942482
 10
604.0044550245
 20
-446.720828932
 10
608.9795672315
 20
-443.9209563427
 10
613.9515370509
 20
-440.8341492012
 10
618.9078048557
 20
-437.4682050504
 10
623.835850683
 20
-433.8316265574
 10
628.7232258615
 20
-429.9336000349
 10
633.5575844572
 20
-425.7839722363
 10
638.3267144609
 20
-421.3932254816
 10
643.0185686362
 20
-416.7724511781
 10
647.6212949522
 20
-411.9333218027
 10
652.1232665229
 20
-406.8880614163
 10
656.5131109773
 20
-401.6494147843
 10
660.7797391874
 20
-396.2306151829
 10
664.91237328
 20
-390.6453509702
 10
668.9005738627
 20
-384.9077310083
 10
672.7342663947
 20
-379.0322490231
 10
676.4037666361
 20
-373.033746992
 10
679.8998051105
 20
-366.9273776519
 10
683.2135505216
 20
-360.7285662216
 10
686.3366320608
 20
-354.4529714368
 10
689.261160553
 20
-348.1164459945
 10
691.9797483856
 20
-341.7349965079
 10
694.4855281696
 20
-335.3247430724
 10
696.7721700879
 20
-328.9018785443
 10
698.8338978845
 20
-322.4826276369
 10
700.6655034562
 20
-316.0832059352
 10
702.2623600082
 20
-309.7197789337
 10
703.6204337423
 20
-303.4084212013
 10
704.7362940464
 20
-297.1650757754
 10
705.6071221605
 20
-291.0055138883
 10
706.2307182973
 20
-284.9452951281
 10
706.6055071988
 20
-278.9997281332
 10
706.7305421156
 20
-273.1838319218
  0
LWPOLYLINE
  5
C6
330
1F
100
AcDbEntity
  8
0
  6
Continuous
 62
     7
370
    25
100
AcDbPolyline
 90
       17
 70
   128
 43
0.0
 10
1194.6342211343
 20
-554.8446305007
 10
1194.5091862175
 20
-549.1730965315
 10
1194.134397316
 20
-543.6602515914
 10
1193.5108011792
 20
-538.3200216053
 10
1192.6399730651
 20
-533.1658964576
 10
1191.524112761
 20
-528.2108959156
 10
1190.1660390269
 20
-523.4675367408
 10
1188.5691824749
 20
-518.9478010701
 10
1186.7375769033
 20
-514.6631061482
 10
1184.6758491066
 20
-510.6242754861
 10
1182.3892071883
 20
-506.8415115208
 10
1179.8834274043
 20
-503.3243698423
 10
1177.1648395718
 20
-500.0817350556
 10
1174.2403110795
 20
-497.1217983378
 10
1171.1172295403
 20
-494.4520367457
 10
1167.8034841293
 20
-492.079194329
 10
1165.6335830527
 20
-490.746357595
  0
LWPOLYLINE
  5
C7
330
1F
100
AcDbEntity
  8
0
  6
Continuous
 62
     7
370
    25
100
AcDbPolyline
 90
       48
 70
   128
 43
0.0
 10
1025.6449604837
 20
-733.2400390616
 10
1028.784734623
 20
-734.8968394667
 10
1032.5375161783
 20
-736.5028376768
 10
1036.4496982447
 20
-737.794313732
 10
1040.5113983107
 20
-738.7680052516
 10
1044.7123561696
 20
-739.4214526065
 10
1049.0419598371
 20
-739.7530051317
 10
1053.4892723586
 20
-739.761825297
 10
1058.0430594367
 20
-739.4478908218
 10
1062.6918178101
 20
-738.8119947318
 10
1067.4238043116
 20
-737.8557433557
 10
1072.2270655327
 20
-736.5815522676
 10
1077.0894680186
 20
-734.9926401846
 10
1081.9987289187
 20
-733.0930208366
 10
1086.9424470139
 20
-730.887492827
 10
1091.9081340432
 20
-728.3816275109
 10
1096.8832462502
 20
-725.5817549215
 10
1101.8552160697
 20
-722.49494778
 10
1106.8114838744
 20
-719.1290036293
 10
1111.7395297017
 20
-715.4924251362
 10
1116.6269048802
 20
-711.5943986137
 10
1121.4612634759
 20
-707.4447708152
 10
1126.2303934796
 20
-703.0540240604
 10
1130.9222476549
 20
-698.4332497569
 10
1135.5249739709
 20
-693.5941203816
 10
1140.0269455416
 20
-688.5488599951
 10
1144.4167899961
 20
-683.3102133632
 10
1148.6834182061
 20
-677.8914137618
 10
1152.8160522987
 20
-672.306149549
 10
1156.8042528814
 20
-666.5685295871
 10
1160.6379454135
 20
-660.6930476019
 10
1164.3074456548
 20
-654.6945455709
 10
1167.8034841293
 20
-648.5881762308
 10
1171.1172295403
 20
-642.3893648005
 10
1174.2403110795
 20
-636.1137700156
 10
1177.1648395718
 20
-629.7772445733
 10
1179.8834274043
 20
-623.3957950868
 10
1182.3892071883
 20
-616.9855416512
 10
1184.6758491066
 20
-610.5626771231
 10
1186.7375769033
 20
-604.1434262158
 10
1188.5691824749
 20
-597.744004514
 10
1190.1660390269
 20
-591.3805775125
 10
1191.524112761
 20
-585.0692197801
 10
1192.6399730651
 20
-578.8258743542
 10
1193.5108011792
 20
-572.6663124672
 10
1194.134397316
 20
-566.6060937069
 10
1194.5091862175
 20
-560.660526712
 10
1194.6342211343
 20
-554.8446305007
  0
LWPOLYLINE
  5
C8
330
1F
100
AcDbEntity
  8
0
  6
Continuous
 62
     7
370
    25
100
AcDbPolyline
 90
      114
 70
   128
 43
0.0
 10
688.7700298735
 20
-283.552214942
 10
688.6447934728
 20
-278.424071921
 10
688.2694713695
 20
-273.4563745665
 10
687.6452236625
 20
-268.6644777465
 10
686.7739798659
 20
-264.0631929393
 10
685.6584329441
 20
-259.6667424527
 10
684.3020309889
 20
-255.488715463
 10
682.708966561
 20
-251.5420260124
 10
680.8841637311
 20
-247.8388730917
 10
678.8332628603
 20
-244.3907029344
 10
676.5626031656
 20
-241.2081736368
 10
674.0792031261
 20
-238.3011222147
 10
671.3907387889
 20
-235.6785341973
 10
668.5055200432
 20
-233.3485158539
 10
665.4324649348
 20
-231.3182691377
 10
662.181072101
 20
-229.594069425
 10
658.7613914106
 20
-228.1812461183
 10
655.1839929008
 20
-227.0841661733
 10
651.4599341052
 20
-226.3062206015
 10
647.6007258763
 20
-225.8498139879
 10
643.6182968054
 20
-225.7163570592
 10
639.5249563526
 20
-225.9062623231
 10
635.3333567987
 20
-226.4189427935
 10
631.0564541378
 20
-227.2528138042
 10
626.7074680307
 20
-228.4052979079
 10
622.2998409443
 20
-229.8728328421
 10
617.8471966015
 20
-231.6508825406
 10
613.3632978706
 20
-233.7339511535
 10
608.8620042257
 20
-236.1156000352
 10
604.3572289074
 20
-238.7884676455
 10
599.8628959182
 20
-241.7442923037
 10
595.3928969838
 20
-244.9739377253
 10
590.9610486146
 20
-248.4674212613
 10
586.5810494
 20
-252.2139447544
 10
582.2664376666
 20
-256.201927915
 10
578.030549632
 20
-260.4190441158
 10
573.8864781833
 20
-264.8522584923
 10
569.8470324079
 20
-269.4878682329
 10
565.9246980013
 20
-274.3115449336
 10
562.1315986742
 20
-279.3083788861
 10
558.4794586794
 20
-284.462925163
 10
554.9795665722
 20
-289.7592513572
 10
551.6427403186
 20
-295.1809868279
 10
548.4792938573
 20
-300.7113733015
 10
545.4990052201
 20
-306.3333166704
 10
542.7110863083
 20
-312.0294398297
 10
540.1241544194
 20
-317.7821363892
 10
537.7462056118
 20
-323.5736250936
 10
535.584589989
 20
-329.386004783
 10
533.6459889808
 20
-335.2013097251
 10
531.936394692
 20
-341.0015651455
 10
530.4610913805
 20
-346.768842787
 10
529.2246391243
 20
-352.4853163251
 10
528.2308597265
 20
-358.1333164676
 10
527.4828249023
 20
-363.6953855697
 10
526.9828467843
 20
-369.1543315945
 10
526.7324707764
 20
-374.4932812529
 10
526.7324707764
 20
-379.6957321572
 10
526.9828467843
 20
-384.74560383
 10
527.4828249023
 20
-389.6272874073
 10
528.2308597265
 20
-394.3256938849
 10
529.2246391243
 20
-398.8263007576
 10
530.4610913805
 20
-403.1151969075
 10
531.936394692
 20
-407.1791256024
 10
533.6459889808
 20
-411.0055254716
 10
535.584589989
 20
-414.5825693324
 10
537.7462056118
 20
-417.8992007472
 10
540.1241544194
 20
-420.9451681984
 10
542.7110863083
 20
-423.7110567751
 10
545.4990052201
 20
-426.1883172742
 10
548.4792938573
 20
-428.3692926255
 10
551.6427403186
 20
-430.2472415593
 10
554.9795665722
 20
-431.8163594429
 10
558.4794586794
 20
-433.0717962228
 10
562.1315986742
 20
-434.0096714161
 10
565.9246980013
 20
-434.6270861041
 10
569.8470324079
 20
-434.9221318935
 10
573.8864781833
 20
-434.8938968146
 10
578.030549632
 20
-434.5424681405
 10
582.2664376666
 20
-433.868932117
 10
586.5810494
 20
-432.8753706054
 10
590.9610486146
 20
-431.5648546474
 10
595.3928969838
 20
-429.9414349727
 10
599.8628959182
 20
-428.0101294784
 10
604.3572289074
 20
-425.7769077193
 10
608.8620042257
 20
-423.2486724557
 10
613.3632978706
 20
-420.433238318
 10
617.8471966015
 20
-417.3393076518
 10
622.2998409443
 20
-413.9764436194
 10
626.7074680307
 20
-410.3550406409
 10
631.0564541378
 20
-406.4862922652
 10
635.3333567987
 20
-402.382156572
 10
639.5249563526
 20
-398.0553192095
 10
643.6182968054
 20
-393.5191541839
 10
647.6007258763
 20
-388.7876825215
 10
651.4599341052
 20
-383.87552893
 10
655.1839929008
 20
-378.7978765946
 10
658.7613914106
 20
-373.5704202477
 10
662.181072101
 20
-368.2093176574
 10
665.4324649348
 20
-362.7311396844
 10
668.5055200432
 20
-357.152819063
 10
671.3907387889
 20
-351.4915980625
 10
674.0792031261
 20
-345.7649751925
 10
676.5626031656
 20
-339.9906511163
 10
678.8332628603
 20
-334.1864739387
 10
680.8841637311
 20
-328.3703840385
 10
682.708966561
 20
-322.5603586165
 10
684.3020309889
 20
-316.7743561283
 10
685.6584329441
 20
-311.0302607758
 10
686.7739798659
 20
-305.3458272288
 10
687.6452236625
 20
-299.7386257456
 10
688.2694713695
 20
-294.2259878645
 10
688.6447934728
 20
-288.8249528334
 10
688.7700298735
 20
-283.552214942
  0
LWPOLYLINE
  5
C9
330
1F
100
AcDbEntity
  8
0
  6
Continuous
 62
     7
370
    25
100
AcDbPolyline
 90
       72
 70
   128
 43
0.0
 10
1088.5682039563
 20
-371.1528053406
 10
1088.4436873972
 20
-367.8334551547
 10
1088.0711122308
 20
-364.3963196256
 10
1087.4533943629
 20
-360.8682989989
 10
1086.5953682734
 20
-357.2770048196
 10
1085.5037491797
 20
-353.6505438338
 10
1084.1870804815
 20
-350.0172980156
 10
1082.6556668963
 20
-346.4057024399
 10
1080.9214938119
 20
-342.8440227386
 10
1078.998133484
 20
-339.3601338846
 10
1076.9006388149
 20
-335.9813020318
 10
1074.6454255443
 20
-332.7339711207
 10
1072.2501437738
 20
-329.6435559184
 10
1069.7335398308
 20
-326.7342431142
 10
1067.1153095534
 20
-324.0288020252
 10
1064.4159441434
 20
-321.5484063962
 10
1061.656569795
 20
-319.3124686861
 10
1058.8587823539
 20
-317.3384881389
 10
1056.0444783001
 20
-315.641913829
 10
1053.2356833787
 20
-314.2360237505
 10
1050.4543802182
 20
-313.1318208996
 10
1047.7223362869
 20
-312.3379471606
 10
1045.0609335327
 20
-311.8606156719
 10
1042.4910010407
 20
-311.7035621997
 10
1040.0326520172
 20
-311.8680159003
 10
1037.7051263762
 20
-312.3526897005
 10
1035.5266401618
 20
-313.1537903707
 10
1033.5142429823
 20
-314.265048212
 10
1031.6836845742
 20
-315.677766125
 10
1030.0492915389
 20
-317.3808876766
 10
1028.6238552179
 20
-319.3610836316
 10
1027.4185315831
 20
-321.6028562717
 10
1026.4427539262
 20
-324.0886606866
 10
1025.7041590304
 20
-326.7990420862
 10
1025.2085274022
 20
-329.7127880614
 10
1024.959738031
 20
-332.8070945991
 10
1024.959738031
 20
-336.0577445554
 10
1025.2085274022
 20
-339.4392971869
 10
1025.7041590304
 20
-342.9252872594
 10
1026.4427539262
 20
-346.4884321742
 10
1027.4185315831
 20
-350.1008454911
 10
1028.6238552179
 20
-353.7342551782
 10
1030.0492915389
 20
-357.3602248781
 10
1031.6836845742
 20
-360.9503764618
 10
1033.5142429823
 20
-364.4766121253
 10
1035.5266401618
 20
-367.9113342937
 10
1037.7051263762
 20
-371.2276616089
 10
1040.0326520172
 20
-374.3996393133
 10
1042.4910010407
 20
-377.4024423805
 10
1045.0609335327
 20
-380.2125698053
 10
1047.7223362869
 20
-382.8080285305
 10
1050.4543802182
 20
-385.1685055723
 10
1053.2356833787
 20
-387.2755269977
 10
1056.0444783001
 20
-389.112602507
 10
1058.8587823539
 20
-390.6653544937
 10
1061.656569795
 20
-391.9216305681
 10
1064.4159441434
 20
-392.8715986667
 10
1067.1153095534
 20
-393.507824001
 10
1069.7335398308
 20
-393.8253272451
 10
1072.2501437738
 20
-393.8216235058
 10
1074.6454255443
 20
-393.4967417698
 10
1076.9006388149
 20
-392.8532246771
 10
1078.998133484
 20
-391.8961086216
 10
1080.9214938119
 20
-390.6328843341
 10
1082.6556668963
 20
-389.0734382573
 10
1084.1870804815
 20
-387.2299751712
 10
1085.5037491797
 20
-385.1169226739
 10
1086.5953682734
 20
-382.7508182661
 10
1087.4533943629
 20
-380.150179923
 10
1088.0711122308
 20
-377.3353611657
 10
1088.4436873972
 20
-374.3283917674
 10
1088.5682039563
 20
-371.1528053406
  0
LWPOLYLINE
  5
CA
330
1F
100
AcDbEntity
  8
0
  6
Continuous
 62
     7
370
    25
100
AcDbPolyline
 90
       79
 70
   128
 43
0.0
 10
1095.6392717682
 20
-375.2348458997
 10
1095.5131606508
 20
-371.548310447
 10
1095.1356451775
 20
-367.7400787945
 10
1094.5091736811
 20
-363.8348487858
 10
1093.6378090696
 20
-359.857947336
 10
1092.5272024769
 20
-355.8351661771
 10
1091.1845566129
 20
-351.7925945886
 10
1089.6185790513
 20
-347.7564501984
 10
1087.8394257575
 20
-343.7529089519
 10
1085.8586352232
 20
-339.8079353502
 10
1083.6890536352
 20
-335.9471140609
 10
1081.3447515627
 20
-332.1954839917
 10
1078.8409327041
 20
-328.5773759031
 10
1076.1938352856
 20
-325.1162546145
 10
1073.4206267496
 20
-321.8345668256
 10
1070.5392924178
 20
-318.753595541
 10
1067.5685188488
 20
-315.8933220417
 10
1064.5275726494
 20
-313.272296299
 10
1061.4361755224
 20
-310.9075166705
 10
1058.3143763646
 20
-308.8143196596
 10
1055.1824212413
 20
-307.0062804521
 10
1052.0606220835
 20
-305.4951248762
 10
1048.9692249565
 20
-304.2906533555
 10
1045.928278757
 20
-303.4006773501
 10
1042.9575051881
 20
-302.830968696
 10
1040.0761708563
 20
-302.5852221722
 10
1037.3029623203
 20
-302.6650315394
 10
1034.6558649018
 20
-303.0698792032
 10
1032.1520460432
 20
-303.7971395711
 10
1029.8077439706
 20
-304.8420960805
 10
1027.6381623827
 20
-306.1979717876
 10
1025.6573718484
 20
-307.855973318
 10
1023.8782185545
 20
-309.8053478956
 10
1022.3122409929
 20
-312.0334530783
 10
1020.9695951289
 20
-314.5258387488
 10
1019.8589885362
 20
-317.2663408299
 10
1018.9876239248
 20
-320.2371861138
 10
1018.3611524284
 20
-323.4191075288
 10
1017.9836369551
 20
-326.7914690936
 10
1017.8575258377
 20
-330.3323997494
 10
1017.9836369551
 20
-334.0189352021
 10
1018.3611524284
 20
-337.8271668546
 10
1018.9876239248
 20
-341.7323968633
 10
1019.8589885362
 20
-345.7092983131
 10
1020.9695951289
 20
-349.732079472
 10
1022.3122409929
 20
-353.7746510606
 10
1023.8782185545
 20
-357.8107954507
 10
1025.6573718484
 20
-361.8143366972
 10
1027.6381623827
 20
-365.7593102989
 10
1029.8077439706
 20
-369.6201315882
 10
1032.1520460432
 20
-373.3717616574
 10
1034.6558649018
 20
-376.989869746
 10
1037.3029623203
 20
-380.4509910346
 10
1040.0761708563
 20
-383.7326788235
 10
1042.9575051881
 20
-386.8136501081
 10
1045.928278757
 20
-389.6739236074
 10
1048.9692249565
 20
-392.2949493502
 10
1052.0606220835
 20
-394.6597289786
 10
1055.1824212413
 20
-396.7529259895
 10
1058.3143763646
 20
-398.560965197
 10
1061.4361755224
 20
-400.0721207729
 10
1064.5275726494
 20
-401.2765922936
 10
1067.5685188488
 20
-402.166568299
 10
1070.5392924178
 20
-402.7362769532
 10
1073.4206267496
 20
-402.9820234769
 10
1076.1938352856
 20
-402.9022141097
 10
1078.8409327041
 20
-402.4973664459
 10
1081.3447515627
 20
-401.7701060781
 10
1083.6890536352
 20
-400.7251495686
 10
1085.8586352232
 20
-399.3692738616
 10
1087.8394257575
 20
-397.7112723311
 10
1089.6185790513
 20
-395.7618977535
 10
1091.1845566129
 20
-393.5337925709
 10
1092.5272024769
 20
-391.0414069003
 10
1093.6378090696
 20
-388.3009048192
 10
1094.5091736811
 20
-385.3300595353
 10
1095.1356451775
 20
-382.1481381203
 10
1095.5131606508
 20
-378.7757765555
 10
1095.6392717682
 20
-375.2348458997
  0
ENDSEC
  0
SECTION
  2
OBJECTS
  0
DICTIONARY
  5
C
330
0
100
AcDbDictionary
281
     1
  3
ACAD_GROUP
350
D
  3
ACAD_LAYOUT
350
1A
  3
ACAD_MLINESTYLE
350
17
  3
ACAD_PLOTSETTINGS
350
19
  3
ACAD_PLOTSTYLENAME
350
E
  3
ACAD_SCALELIST
350
47
  0
DICTIONARY
  5
D
102
{ACAD_REACTORS
330
C
102
}
330
C
100
AcDbDictionary
281
     1
  0
DICTIONARY
  5
1A
102
{ACAD_REACTORS
330
C
102
}
330
C
100
AcDbDictionary
281
     1
  3
Layout1
350
1E
  3
Layout2
350
26
  3
Model
350
22
  0
DICTIONARY
  5
17
102
{ACAD_REACTORS
330
C
102
}
330
C
100
AcDbDictionary
281
     1
  3
Standard
350
18
  0
DICTIONARY
  5
19
102
{ACAD_REACTORS
330
C
102
}
330
C
100
AcDbDictionary
281
     1
  0
ACDBDICTIONARYWDFLT
  5
E
102
{ACAD_REACTORS
330
C
102
}
330
C
100
AcDbDictionary
281
     1
  3
Normal
350
F
100
AcDbDictionaryWithDefault
340
F
  0
DICTIONARY
  5
47
102
{ACAD_REACTORS
330
C
102
}
330
C
100
AcDbDictionary
281
     1
  3
A0
350
48
  3
A1
350
49
  3
A2
350
4A
  3
A3
350
4B
  3
A4
350
4C
  3
A5
350
4D
  3
A6
350
4E
  3
A7
350
4F
  3
A8
350
50
  3
A9
350
51
  3
B0
350
52
  3
B1
350
53
  3
B2
350
54
  3
B3
350
55
  3
B4
350
56
  3
B5
350
57
  3
B6
350
58
  3
B7
350
59
  3
B8
350
5A
  3
B9
350
5B
  3
C0
350
5C
  3
C1
350
5D
  3
C2
350
5E
  3
C3
350
5F
  3
C4
350
60
  3
C5
350
61
  3
C6
350
62
  3
C7
350
63
  3
C8
350
64
  3
C9
350
65
  3
D0
350
66
  3
D1
350
67
  3
D2
350
68
  0
LAYOUT
  5
1E
102
{ACAD_REACTORS
330
1A
102
}
330
1A
100
AcDbPlotSettings
  1

  2
none_device
  4

  6

 40
0.0
 41
0.0
 42
0.0
 43
0.0
 44
0.0
 45
0.0
 46
0.0
 47
0.0
 48
0.0
 49
0.0
140
0.0
141
0.0
142
1.0
143
1.0
 70
   688
 72
     1
 73
     0
 74
     5
  7

 75
    16
147
1.0
148
0.0
149
0.0
100
AcDbLayout
  1
Layout1
 70
     1
 71
     1
 10
0.0
 20
0.0
 11
420.0
 21
297.0
 12
0.0
 22
0.0
 32
0.0
 14
1.0000000000E+20
 24
1.0000000000E+20
 34
1.0000000000E+20
 15
-1.0000000000E+20
 25
-1.0000000000E+20
 35
-1.0000000000E+20
146
0.0
 13
0.0
 23
0.0
 33
0.0
 16
1.0
 26
0.0
 36
0.0
 17
0.0
 27
1.0
 37
0.0
 76
     0
330
1B
  0
LAYOUT
  5
26
102
{ACAD_REACTORS
330
1A
102
}
330
1A
100
AcDbPlotSettings
  1

  2
none_device
  4

  6

 40
0.0
 41
0.0
 42
0.0
 43
0.0
 44
0.0
 45
0.0
 46
0.0
 47
0.0
 48
0.0
 49
0.0
140
0.0
141
0.0
142
1.0
143
1.0
 70
   688
 72
     1
 73
     0
 74
     5
  7

 75
    16
147
1.0
148
0.0
149
0.0
100
AcDbLayout
  1
Layout2
 70
     1
 71
     2
 10
0.0
 20
0.0
 11
0.0
 21
0.0
 12
0.0
 22
0.0
 32
0.0
 14
0.0
 24
0.0
 34
0.0
 15
0.0
 25
0.0
 35
0.0
146
0.0
 13
0.0
 23
0.0
 33
0.0
 16
1.0
 26
0.0
 36
0.0
 17
0.0
 27
1.0
 37
0.0
 76
     0
330
23
  0
LAYOUT
  5
22
102
{ACAD_REACTORS
330
1A
102
}
330
1A
100
AcDbPlotSettings
  1

  2
none_device
  4
Letter_(8.50_x_11.00_Inches)
  6

 40
6.35
 41
6.35
 42
6.35000508
 43
6.35000508
 44
215.9
 45
279.4
 46
0.0
 47
0.0
 48
0.0
 49
0.0
140
0.0
141
0.0
142
1.0
143
1.0
 70
  1712
 72
     1
 73
     0
 74
     0
  7

 75
     0
147
1.0
148
0.0
149
0.0
100
AcDbLayout
  1
Model
 70
     1
 71
     0
 10
0.0
 20
0.0
 11
279.4
 21
215.9
 12
0.0
 22
0.0
 32
0.0
 14
0.0
 24
0.0
 34
0.0
 15
279.4
 25
215.9
 35
0.0
146
0.0
 13
0.0
 23
0.0
 33
0.0
 16
1.0
 26
0.0
 36
0.0
 17
0.0
 27
1.0
 37
0.0
 76
     0
330
1F
331
29
  0
MLINESTYLE
  5
18
102
{ACAD_REACTORS
330
17
102
}
330
17
100
AcDbMlineStyle
  2
Standard
 70
     0
  3

 62
   256
 51
90.0
 52
90.0
 71
     2
 49
0.5
 62
   256
  6
BYLAYER
 49
-0.5
 62
   256
  6
BYLAYER
  0
ACDBPLACEHOLDER
  5
F
102
{ACAD_REACTORS
330
E
102
}
330
E
  0
SCALE
  5
48
102
{ACAD_REACTORS
330
47
102
}
330
47
100
AcDbScale
 70
     0
300
1:1
140
1.0
141
1.0
290
     1
  0
SCALE
  5
49
102
{ACAD_REACTORS
330
47
102
}
330
47
100
AcDbScale
 70
     0
300
1:2
140
1.0
141
2.0
290
     0
  0
SCALE
  5
4A
102
{ACAD_REACTORS
330
47
102
}
330
47
100
AcDbScale
 70
     0
300
1:4
140
1.0
141
4.0
290
     0
  0
SCALE
  5
4B
102
{ACAD_REACTORS
330
47
102
}
330
47
100
AcDbScale
 70
     0
300
1:5
140
1.0
141
5.0
290
     0
  0
SCALE
  5
4C
102
{ACAD_REACTORS
330
47
102
}
330
47
100
AcDbScale
 70
     0
300
1:8
140
1.0
141
8.0
290
     0
  0
SCALE
  5
4D
102
{ACAD_REACTORS
330
47
102
}
330
47
100
AcDbScale
 70
     0
300
1:10
140
1.0
141
10.0
290
     0
  0
SCALE
  5
4E
102
{ACAD_REACTORS
330
47
102
}
330
47
100
AcDbScale
 70
     0
300
1:16
140
1.0
141
16.0
290
     0
  0
SCALE
  5
4F
102
{ACAD_REACTORS
330
47
102
}
330
47
100
AcDbScale
 70
     0
300
1:20
140
1.0
141
20.0
290
     0
  0
SCALE
  5
50
102
{ACAD_REACTORS
330
47
102
}
330
47
100
AcDbScale
 70
     0
300
1:30
140
1.0
141
30.0
290
     0
  0
SCALE
  5
51
102
{ACAD_REACTORS
330
47
102
}
330
47
100
AcDbScale
 70
     0
300
1:40
140
1.0
141
40.0
290
     0
  0
SCALE
  5
52
102
{ACAD_REACTORS
330
47
102
}
330
47
100
AcDbScale
 70
     0
300
1:50
140
1.0
141
50.0
290
     0
  0
SCALE
  5
53
102
{ACAD_REACTORS
330
47
102
}
330
47
100
AcDbScale
 70
     0
300
1:100
140
1.0
141
100.0
290
     0
  0
SCALE
  5
54
102
{ACAD_REACTORS
330
47
102
}
330
47
100
AcDbScale
 70
     0
300
2:1
140
2.0
141
1.0
290
     0
  0
SCALE
  5
55
102
{ACAD_REACTORS
330
47
102
}
330
47
100
AcDbScale
 70
     0
300
4:1
140
4.0
141
1.0
290
     0
  0
SCALE
  5
56
102
{ACAD_REACTORS
330
47
102
}
330
47
100
AcDbScale
 70
     0
300
8:1
140
8.0
141
1.0
290
     0
  0
SCALE
  5
57
102
{ACAD_REACTORS
330
47
102
}
330
47
100
AcDbScale
 70
     0
300
10:1
140
10.0
141
1.0
290
     0
  0
SCALE
  5
58
102
{ACAD_REACTORS
330
47
102
}
330
47
100
AcDbScale
 70
     0
300
100:1
140
100.0
141
1.0
290
     0
  0
SCALE
  5
59
102
{ACAD_REACTORS
330
47
102
}
330
47
100
AcDbScale
 70
     0
300
1/128" = 1'-0"
140
0.0078125
141
12.0
290
     0
  0
SCALE
  5
5A
102
{ACAD_REACTORS
330
47
102
}
330
47
100
AcDbScale
 70
     0
300
1/64" = 1'-0"
140
0.015625
141
12.0
290
     0
  0
SCALE
  5
5B
102
{ACAD_REACTORS
330
47
102
}
330
47
100
AcDbScale
 70
     0
300
1/32" = 1'-0"
140
0.03125
141
12.0
290
     0
  0
SCALE
  5
5C
102
{ACAD_REACTORS
330
47
102
}
330
47
100
AcDbScale
 70
     0
300
1/16" = 1'-0"
140
0.0625
141
12.0
290
     0
  0
SCALE
  5
5D
102
{ACAD_REACTORS
330
47
102
}
330
47
100
AcDbScale
 70
     0
300
3/32" = 1'-0"
140
0.09375
141
12.0
290
     0
  0
SCALE
  5
5E
102
{ACAD_REACTORS
330
47
102
}
330
47
100
AcDbScale
 70
     0
300
1/8" = 1'-0"
140
0.125
141
12.0
290
     0
  0
SCALE
  5
5F
102
{ACAD_REACTORS
330
47
102
}
330
47
100
AcDbScale
 70
     0
300
3/16" = 1'-0"
140
0.1875
141
12.0
290
     0
  0
SCALE
  5
60
102
{ACAD_REACTORS
330
47
102
}
330
47
100
AcDbScale
 70
     0
300
1/4" = 1'-0"
140
0.25
141
12.0
290
     0
  0
SCALE
  5
61
102
{ACAD_REACTORS
330
47
102
}
330
47
100
AcDbScale
 70
     0
300
3/8" = 1'-0"
140
0.375
141
12.0
290
     0
  0
SCALE
  5
62
102
{ACAD_REACTORS
330
47
102
}
330
47
100
AcDbScale
 70
     0
300
1/2" = 1'-0"
140
0.5
141
12.0
290
     0
  0
SCALE
  5
63
102
{ACAD_REACTORS
330
47
102
}
330
47
100
AcDbScale
 70
     0
300
3/4" = 1'-0"
140
0.75
141
12.0
290
     0
  0
SCALE
  5
64
102
{ACAD_REACTORS
330
47
102
}
330
47
100
AcDbScale
 70
     0
300
1" = 1'-0"
140
1.0
141
12.0
290
     0
  0
SCALE
  5
65
102
{ACAD_REACTORS
330
47
102
}
330
47
100
AcDbScale
 70
     0
300
1-1/2" = 1'-0"
140
1.5
141
12.0
290
     0
  0
SCALE
  5
66
102
{ACAD_REACTORS
330
47
102
}
330
47
100
AcDbScale
 70
     0
300
3" = 1'-0"
140
3.0
141
12.0
290
     0
  0
SCALE
  5
67
102
{ACAD_REACTORS
330
47
102
}
330
47
100
AcDbScale
 70
     0
300
6" = 1'-0"
140
6.0
141
12.0
290
     0
  0
SCALE
  5
68
102
{ACAD_REACTORS
330
47
102
}
330
47
100
AcDbScale
 70
     0
300
1'-0" = 1'-0"
140
12.0
141
12.0
290
     0
  0
ENDSEC
  0
EOF
